E-Bass Forum

E-Bass
E-Bass Lernen




In diesem Forum kannst du deine Meinung sagen, ohne gleich verbannt zu werden. Wir sehen es nicht so eng. Ansonsten sind die Admins und Moderatoren ja auch noch da!

In this forum you can post your opinion what so ever. We’re cool. You won’t be banned immediately. Admins and moderators will guide and help you.







Es ist Uhr





#41

RE: Was übt ihr gerade?

in Musik 17.06.2008 00:32
von der alte • Moderator

| 783 Beiträge

... versuche mich zur zeit an DEEP PURPLE "black night"

http://de.youtube.com/watch?v=y4GaooBYO5w

und das Tab dazu:

G|--9999999-777777-|--------------|
D|-----------------|999999-555555-|
A|-----------------|--------------|
E|-----------------|--------------|

G|-----------------------------------------------------|
D|-----5---------------5------7---5----------------5---|
A|--7----7--5----5--7------7---------7---5---7-------7-|
E|-------------7---------------------------------------| X2

(Start singed)
G|-------------------------------------------------------|
D|-------------------------------------------------------|
A|-57777777-57777777-57777777-57777777-57777777-57777777-| (mute 7's)
E|-------------------------------------------------------|


G|------------------------------------------------|
D|---------------------4--------------------------|
A|--7--5-----5-----5------7---5---7---5-----------|
E|--------7-----7-------------------------7---5---|

G|------------------------------------|
D|------------------------------------|
A|------------------------------------|
E|-55555555-33333333-0000000000000000-|

G|------------------------------------|
D|------------------------------------|
A|------------------------------------|
E|-55555555-33333333-7---------------|


(Solo)
G|-------------------------------------------------------|
D|-------------------------------------------------------|
A|-57777777-57777777-57777777-57777777-57777777-57777777-|
E|-------------------------------------------------------| X2

01:50.5
G|-------------------------------------------------|
D|---------------------4---------------------------|
A|--7--5-----5-----5------7---5---7---5------------|
E|--------7-----7--------------------------7---5---|

G|-------------------------------------|
D|-------------------------------------|
A|-------------------------------------|
E|-55555555-33333333-55555555-33333333-| X3

G|-------------------------------------------------|
D|---------------------4---------------------------|
A|--7--5-----5-----5------7---5---7---5------------|
E|--------7-----7---------------------------7---5--|

G----------------------------------------------------------------|
D|-----5----------------5------7---5-----------------------5-----|
A|--7----7--5----5--7------7----------7---5---7---------------7--|
E|-------------7-------------------------------------------------| X2


G|-------------------------------------------------------|
D|-------------------------------------------------------|
A|-57777777-57777777-57777777-57777777-57777777-57777777-|
E|-------------------------------------------------------|

G|-------------------------------------------------|
D|---------------------4---------------------------|
A|--7--5-----5-----5------7---5---7---5------------|
E|--------7-----7---------------------------7---5--|

G|-----------------------------------------------------|
D|-----5---------------5------7---5----------------5---|
A|--7----7--5----5--7------7---------7---5---7-------7-|
E|-------------7---------------------------------------|

G|------------------------------------|
D|------------------------------------|
A|------------------------------------|
E|-55555555-33333333-0000000000000000-|

G|------------------------------------|
D|------------------------------------|
A|------------------------------------|
E|-55555555-33333333-7----------------|


G|----------|
D|----------|
A|-57777777-|
E|----------| Repeat to fade till the end



nach oben springen

#42

RE: Was übt ihr gerade?

in Musik 25.06.2008 03:34
von Engelskrieger • Club Bassist

| 270 Beiträge

Zur Zeit übe ich "Leere Worte - böhse onkelz".
Übt ihr mit einem Programm Guitar Pro z.B. oder Powertab?? oder nur nach den typischen tabs?


Böse Menschen, böse Lieder - Böhse onkelz immer wieder

Lieber Hass als gespielte Liebe
nach oben springen

#43

RE: Was übt ihr gerade?

in Musik 07.07.2008 04:09
von Cyrus • F-Club Bassist

| 642 Beiträge

Enter Sandman nach Noten

nach oben springen

#44

RE: Was übt ihr gerade?

in Musik 18.07.2008 02:08
von Spawn • F-Club Bassist

| 570 Beiträge

Stevie Wonder - I Wish / Macht spass^^
Jamiroquai - Runaway / Macht noch mehr Spass wenn mans auswendig kann :D
Cranberries - Zombie / Muss man nicht wirklich üben xD einfach losspielen^^

nach oben springen

#45

RE: Was übt ihr gerade?

in Musik 20.03.2009 02:21
von der alte • Moderator

| 783 Beiträge

... hab mal wieder in meinen Platten gekramt
und bin auf Thin Lizzy gestoßen, mit der
Bass legende Phil Lynott, leider schon lange
tot.
nun über ich dieses hier:




BASS IST GEIL
nach oben springen

#46

RE: Was übt ihr gerade?

in Musik 20.03.2009 05:45
von Walther • Club Bassist

| 467 Beiträge

Ich zieh mir grad Child in Time un Master of Puppets xD


Ich weiß, dass ich nichts weiß. - Sokrates
nach oben springen

#47

RE: Was übt ihr gerade?

in Musik 23.04.2009 10:58
von Luzifer • Bass Spieler
| 18 Beiträge

Ich musste mich nun entscheiden welches das erstes Lied sein sollte, das die ehre haben sollte von mir gespielt zu werde :P. Und da dachte ich mir, Die Blues Broteher´s Filme fandeste immer so toll, und jetz versuch ich mich an "Everybody Need Somebody to Love". Is wahrschnlich eines der leichtern aber fürn anfänger doch ne kleine herausforderung.

nach oben springen

#48

RE: Was übt ihr gerade?

in Musik 30.03.2010 02:49
von ICS_VORTEX_//.< • Bass Schüler | 1 Beitrag

naja ich übe gerade
the chosesn legacy von dimmu borgir und
the sacrilegious scorn von dimmu borgir


nach oben springen

#49

RE: Was übt ihr gerade?

in Musik 30.03.2010 20:04
von Bluesman65 • Bassist
| 100 Beiträge

nun ja mit Suzie Q bin ich nun durch .....verschiedene Blueslines...aktuell Mary had a little Lamp von Stevie Ray Vaughn.....ach ja den Stray Cat Strut von den Stray Cats....macht auch laune


Er spielt mal Bass, mal Bässer
Warwick... the Sound of Wood

nach oben springen

#50

RE: Was übt ihr gerade?

in Musik 15.04.2010 23:59
von Bluesman65 • Bassist
| 100 Beiträge

versuche krampfhaft nen walking -bass zu spielen.....habe auch ne super anleitung mit hörbeispiel und tabs...aber es ist echt frustrierend .....ich bekomme dass wohl niemals hin ...so ein sch.....


Er spielt mal Bass, mal Bässer
Warwick... the Sound of Wood

nach oben springen


↓↓Dies ist eine Shoutbox und kein Chat!↓↓


Hörprobe 1Hörprobe 2
E-Bass.at
Teamspeak

E-Mail

2012 © Copyright E-Bass.at

Der Forum-Inhaber ist nicht für die im Forum verlinkten Seiten und Beiträge der User verantwortlich.

Translate


Besucher
0 Mitglieder und 6 Gäste sind Online

Wir begrüßen unser neuestes Mitglied: Lithium
Forum Statistiken
Das Forum hat 2668 Themen und 33184 Beiträge.

Heute waren 0 Mitglieder Online:

Besucherrekord: 624 Benutzer (16.11.2014 13:59).

Xobor Einfach ein eigenes Forum erstellen | ©Xobor.de