E-Bass Forum

E-Bass
E-Bass Lernen




In diesem Forum kannst du deine Meinung sagen, ohne gleich verbannt zu werden. Wir sehen es nicht so eng. Ansonsten sind die Admins und Moderatoren ja auch noch da!

In this forum you can post your opinion what so ever. We’re cool. You won’t be banned immediately. Admins and moderators will guide and help you.







Es ist Uhr





#21

RE: Was übt ihr gerade?

in Musik 08.01.2007 08:20
von Frankenstein • Club Bassist

| 268 Beiträge

so antireligiös???

da hab ichn Tab:

..Saaaataaann........YEEEEEAAAHH.........tot der kirche................Saaaattaaaan.......Gedääääärme

G--------------------------------------------------------------------------------------
D--------------------------------------------------------------------------------------
A--------------------------------------------------------------------------------------
E--------------------------------------------------------------------------------------
H--------------------------------------------------------------------------------------
F#-------------------------------------------------------------------------------------
C#-------------------------------------------------------5555555555555-8-555555555-8---
G#-------------5--444444444------------------------------5555555555555-8-555555555-8---
D#--3333333333---------------3-2-1111111111----------2---3333333333333-6-333333333-6---



--------------------------------------------------

*Daz muzz gruuuuvven bizzer Joind schmilzd...*


nach oben springen

#22

RE: Was übt ihr gerade?

in Musik 08.01.2007 08:25
von aemkei • Black Metal Bassist

| 3.517 Beiträge

lol. erinnert mich an Heute morgen, als ich aus der Bahn gestiegen bin (hatte eigentlich normale klamotten an, also T-Shirt mit so nem zombie druff, Kutte, dunkle Jeans, Chucks, lang offene haare,....) und dann rief mir so'n Typ "SATAAAAN" hinterher

ich hasse leute, die kein' plan haben.!
_____________________________________________
Your hour has come! I came around you to get!
This is Death, this is the road to hell.


nach oben springen

#23

RE: Was übt ihr gerade?

in Musik 08.01.2007 11:43
von Freak • Könner

| 1.377 Beiträge

Aber ich mag auch keine Anti-Religösität, also ich meine, wer glauben will, soll glauben dürfen, ich hab meinen Glauben. Ich versuche ihn keinem aufzureden, aber andererseits mag ich auch nicht, dass sich Leute darüber lustig machen. Okay, ich bin zwar nicht katholisch, aber ich weiss auch den Katholizismus, in gewisser Weise zu schätzen. Und selbst wenn ich den Pabst nicht toll finde, heisst das nicht, dass ich gleich die ganz Glaubensrichtung in den Dreck ziehen muss. Aber wie gesagt, jedem das seine...
----------------------------------------------------

Ich bin nicht eingebildet, ich bin wirklich so toll!


nach oben springen

#24

RE: Was übt ihr gerade?

in Musik 09.01.2007 04:49
von aemkei • Black Metal Bassist

| 3.517 Beiträge

"Katholizismus"
_____________________________________________
Your hour has come! I came around you to get!
This is Death, this is the road to hell.


nach oben springen

#25

RE: Was übt ihr gerade?

in Musik 09.01.2007 07:16
von Freak • Könner

| 1.377 Beiträge

Ich find das Wort toll, ich wusste zwar nicht obs das gibt aber mir gefiel es
----------------------------------------------------

Ich bin nicht eingebildet, ich bin wirklich so toll!


nach oben springen

#26

RE: Was übt ihr gerade?

in Musik 02.09.2007 01:05
von der alte • Moderator

| 783 Beiträge
Versuche gerade IN-A-GADDA-DA-VIDA von IRON BUTTERFLY
zu zupfen

Hier das Tab zum mit zupfen


In-a-gadda-da-vida Bass Tab by Iron Butterfly

Tabbed by Kurt Reichardt
Correction of Jimmy Myers tab

Verse: (Main Riff)
G:------------------------|
D:--0-0-3-2---0--7-6-5-3--|
A:----------3-------------|
E:------------------------|


Pre-Chorus Riff:
G:------------1-2-1-2-3-2-1-2-1h2p1----|
D:--0-2-3-2-3-----------------------3--|
A:-------------------------------------|
E:-------------------------------------|


Chorus: Part One
G:----------------------------------|
D:--5---3-5--5-4-3--2-----2--2-3-4--|
A:----5---------------2-5-----------|
E:----------------------------------|


Chorus: Part Two
G:----------------------------------|
D:--7---5-7--7-6-5--4-----4--4-5-6--|
A:----7---------------4-7-----------|
E:----------------------------------|

Post-Chorus Riff:
G:---------------------------------|
D:--9-----9-8h9p8------------------|
A:----------------9--11--13--7--9--|
E:-----7---------------------------|


Bass Fill into Drum Solo:
G:--6h7p6h7-----------------|
D:----------6h7p6h7-0-------|
A:--------------------------|
E:--------------------------|


Variation of Verse Riff:
G:--------------------------|
D:--0-0-3-2---0--0-0-3-2----|
A:----------3------------3--|
E:--------------------------|



Order:
Organ Intro
Verse (x8)
Pre-Chorus
Chorus: Part 1 (x2)
Chorus: Part 2 (x2)
Post-Chorus
Verse (x8)
Pre-Chorus
Chorus: Part 1 (x2)
Chorus: Part 2 (x2)
Post-Chorus
Verse (x about 40)*
Bass Fill into Drum Solo
6+ minute drum solo, so you can take a little break here
Bass Fill variation under guitar and keyboard effects
Short drum solo
Verse variation (x4) bass & drums only
Verse (x8 or 10)
Pre-Chorus
Chorus: Part 1 (x2)
Chorus: Part 2 (x2)
Post-Chorus
Verse (x4)
Drum fill
Verse Variation (x4)
Organ fill (intro)
Verse (First Half)

zuletzt bearbeitet 02.09.2007 08:36 | nach oben springen

#27

RE: Was übt ihr gerade?

in Musik 02.09.2007 01:26
von DarkYoshi • Bassist
| 68 Beiträge

Ich üb gerade "The Pot" von Tool. Kann ich nur jedem weiterempfehlen, is verdammt geil zu spielen.

Tab:
http://tooltabs.net/tabs/tool/bass/10,00...s/The%20Pot.htm

Video:
http://youtube.com/watch?v=-qGnu-N6UHI

Mein Versuch:
http://youtube.com/watch?v=fKx1yrqVJsA

nach oben springen

#28

RE: Was übt ihr gerade?

in Musik 02.09.2007 06:39
von lefettsack • Bass Lehrer

| 2.235 Beiträge

diverse rammstein lieder, im rahmen meines baldigen auftitts als rammstein cover zusmmen mit 2 kumpels!
besonder seem an hats mir angetan!


Wozu nen Sixpack wenn man ein Fass haben kann?
nach oben springen

#29

RE: Was übt ihr gerade?

in Musik 10.09.2007 00:33
von BaSsIstIN • Bassist
| 67 Beiträge

Über gerade "tearjerker" von Red hot chili Peppers und ein paar Walkingbasslinien aus der Bassbible...
Aller Anfang ist schwer...


GUT BÄSSER BASS!;)
---
Verzeiht mir meine dummen Fragen, aber irgendwann ist jeder mal Anfänger gewesen ;).
nach oben springen

#30

RE: Was übt ihr gerade?

in Musik 10.09.2007 01:57
von Roque • Club Bassist

| 480 Beiträge

Gary Moore - Still Got The Blues


____________________________________________________
Legt euer Geld in Alkohol an! Wo sonst gibt es 40%?
nach oben springen


↓↓Dies ist eine Shoutbox und kein Chat!↓↓


Hörprobe 1Hörprobe 2
E-Bass.at
Teamspeak

E-Mail

2012 © Copyright E-Bass.at

Der Forum-Inhaber ist nicht für die im Forum verlinkten Seiten und Beiträge der User verantwortlich.

Translate


Besucher
0 Mitglieder und 16 Gäste sind Online

Wir begrüßen unser neuestes Mitglied: Lithium
Forum Statistiken
Das Forum hat 2668 Themen und 33184 Beiträge.

Heute waren 0 Mitglieder Online:

Besucherrekord: 624 Benutzer (16.11.2014 13:59).

Xobor Einfach ein eigenes Forum erstellen | ©Xobor.de