E-Bass Forum

E-Bass
E-Bass Lernen




In diesem Forum kannst du deine Meinung sagen, ohne gleich verbannt zu werden. Wir sehen es nicht so eng. Ansonsten sind die Admins und Moderatoren ja auch noch da!

In this forum you can post your opinion what so ever. We’re cool. You won’t be banned immediately. Admins and moderators will guide and help you.







Es ist Uhr




#1

Noten/ Bass-Tabs Tie a yellow ribbon

in Sonstiges: 27.12.2007 04:26
von Steve • Bass Spieler
| 17 Beiträge


Hallo Leute!

Hab´mir nach ca 20 Jahren meinen Wunsch erfüllt und mir zusätzlich zur Halbresonanz und Konzertgitarre einen E-Bass zugelegt. Ibanez RD 300 FM. Zuvor zum Probieren einen alten Gebrauchten Shortscale, den ich restaurierte.Stammt vermutlich aus den 60ern. Lasst sich super bespielen. Sollte es hinhauen, Bilder des restaurierten Basses sind anhängig.

Bin total begeistert!

Aber jetzt meine Frage:

Ich würde die Bassnoten (notfalls auch Tabs) für die Lieder Tie a yellow ribbon und Sowewhere over the Rainbow benötigen. Im Netz wurde ich nicht fündig.

Gruß, Steve
Angefügte Bilder:
f2.jpg
a.JPG
29102007011.jpg
zuletzt bearbeitet 27.12.2007 04:27 | nach oben springen

#2

RE: Noten/ Bass-Tabs Tie a yellow ribbon

in Sonstiges: 28.12.2007 10:31
von JP • Admin

| 2.609 Beiträge

Hallo und willkommen im Forum!

Du hast dir da ja ein schönes Schmuckstück zugelegt.


Tie a Yellow Ribbon Tab: Eigentlich spielt man da ein Kontra Bass!

G||-------------------|-------------------|-------------------------------|
D||-------------------|-------------------|-------------------------------|
A||-------------------|-------------------|--3----3-------3---L---3---L---|
E||-------------------|-------------------|-------------------------------|

------------------------------|--0---L---0--L-------------------|
--2---L-----------2-----2-----|---------------------------------|
----------2---L---------------|-----------------0---L---0---L---|
------------------------------|---------------------------------|

------------------------------|--------------------------------|
--0---L-----------0-----0-----|--0---L---0--L------------------|
----------0---L---------------|-----------------1---L---1--L---|
------------------------------|--------------------------------|

---------------------------------|--------------------------------|
---------------------------------|--0---L-----------0-----0--0----|
--3---L---3---L---0---L---0--L---|----------0---L-----------------|
---------------------------------|--------------------------------|

--1---L---1--L---0---L---0---L---|--1---L-----------1-----1-----|
---------------------------------|----------1---L---------------|
---------------------------------|------------------------------|
---------------------------------|------------------------------|

--0---L---0----0---L---0-----|----------------------------|
-----------------------------|-------4--------------------|
-----------------------------|--3---------3---L---3---L---|
-----------------------------|----------------------------|

-----------------------------|--0---L---0---L------------------|
--2---L---4----2---L---2-----|---------------------------------|
-----------------------------|------------------0---L---0--L---|
-----------------------------|---------------------------------|

--------------------------------|----------------------------------|
-----------------0---L---0--L---|--0---L---0---L-------------------|
--0---L---0--L------------------|------------------1---L---1---L---|
--------------------------------|----------------------------------|

--------------------------------|---------------------------------|
--------------------------------|---------------------------------|
--3---L---3--L---0---L---0--L---|--3---L---3---L---3---L---3--L---|
--------------------------------|---------------------------------|

----------------------------------|---------------------------------|
----------------------------------|--0---L---0---L------------------|
--3---L---3---L---0---L---0---L---|------------------1---L---1--L---|
----------------------------------|---------------------------------|

------------------0---L---0--L---|------------------------------|
--0---L---0---L------------------|------------------------------|
---------------------------------|--3---L-----------3-----3-----|
---------------------------------|----------3---L---------------|

--0---L-----------0-----0--0----|------------------------------|
----------0---L-----------------|------------------------------|
--------------------------------|--3---L-----------3-----3-----|
--------------------------------|----------3---L---------------|

--------------------------------|--0---L---0---L------------------|
--2---L-----------2-----2--2----|---------------------------------|
----------2---L-----------------|------------------0---L---0--L---|
--------------------------------|---------------------------------|

--------------------------------|--------------------------------|
--0---L-----------0-----0--0----|--0---L---0--L------------------|
----------0---L-----------------|-----------------1---L---1--L---|
--------------------------------|--------------------------------|

--------------------------------|------------------------------|
--------------------------------|--0---L-----------0-----0-----|
--3---L---3--L---0---L---0--L---|----------0---L---------------|
--------------------------------|------------------------------|

--1---L---1--L---0---L---0--L---|--1----1-------1---L---1---L---|
--------------------------------|-------------------------------|
--------------------------------|-------------------------------|
--------------------------------|-------------------------------|

--0---L-----------0-----0-----|-----------------------------|
----------0---L---------------|-----------------------------|
------------------------------|--3---L---3----3---L---3-----|
------------------------------|-----------------------------|

----------2------------------|--0---L---0--L------------------|
--2---L--------2---L---4-----|--------------------------------|
-----------------------------|-----------------0---L---0--L---|
-----------------------------|--------------------------------|

--------------------------------|---------------------------------|
-----------------0---L---0--L---|--0---L---0---L------------------|
--0---L---0--L------------------|------------------1---L---1--L---|
--------------------------------|---------------------------------|

---------------------------------|--------------------------------|
---------------------------------|--------------------------------|
--3---L---3--L---0---L---0---L---|--3---L---3--L---3---L---3--L---|
---------------------------------|--------------------------------|

---------------------------------|---------------------------------|
---------------------------------|--0---L---0--L-------------------|
--3---L---3---L---0---L---0--L---|-----------------1---L---1---L---|
---------------------------------|---------------------------------|

-----------------0---L---0---L---|------------------------------|
--0---L---0--L-------------------|------------------------------|
---------------------------------|--3---L-----------3-----3-----|
---------------------------------|----------3---L---------------|

--0---L-----------0-----0-----|------------------------------|
----------0---L---------------|------------------------------|
------------------------------|--3---L-----------3-----3-----|
------------------------------|----------3---L---------------|

------------------------------|--0---L---0--L-------------------|
--2---L-----------2-----2-----|---------------------------------|
----------2---L---------------|-----------------0---L---0---L---|
------------------------------|---------------------------------|

------------------------------|---------------------------------|
--0---L-----------0-----0-----|--0---L---0--L-------------------|
----------0---L---------------|-----------------1---L---1---L---|
------------------------------|---------------------------------|

----------------------------------|------------------------------|
----------------------------------|--0---L-----------0-----0-----|
--3---L---3---L---0---L---0---L---|----------0---L---------------|
----------------------------------|------------------------------|

--1---L---1---L---0---L---0---L---|--1---L-----------1-----1--1----|
----------------------------------|----------1---L-----------------|
----------------------------------|--------------------------------|
----------------------------------|--------------------------------|

--0---L-----------0-----0-----|-----------------------------|
----------0---L---------------|-----------------------------|
------------------------------|--3---L---3----3---L---3-----|
------------------------------|-----------------------------|

-------2--------------------|--0---L---0--L------------------|
--2---------2---L---2---L---|--------------------------------|
----------------------------|-----------------0---L---0--L---|
----------------------------|--------------------------------|

---------------------------------|--------------------------------|
------------------0---L---0--L---|--0---L---0--L------------------|
--0---L---0---L------------------|-----------------1---L---1--L---|
---------------------------------|--------------------------------|

---------------------------------|---------------------------------|
---------------------------------|---------------------------------|
--3---L---3---L---0---L---0--L---|--3---L---3--L---3---L---3---L---|
---------------------------------|---------------------------------|

----------------------------------|---------------------------------|
----------------------------------|--0---L---0--L-------------------|
--3---L---3---L---0---L---0---L---|-----------------1---L---1---L---|
----------------------------------|---------------------------------|

------------------0---L---0--L---|--------------------------------|
--0---L---0---L------------------|--------------------------------|
---------------------------------|--3---L-----------3-----3--3----|
---------------------------------|----------3---L-----------------|

--0---L--------0---L---------|------------------------------|
----------2------------0-----|------------------------------|
-----------------------------|--3---L---------3---L---------|
-----------------------------|----------3-------------3-----|

---------------------------||
---------------------------||
--3----------------3-------||
--------------3------------||


L = tied note


Somewhere Over The Rainbow Tab:

G||-------------------|-------------------|--------------------|
D||--0----------------|--0----------------|--0-----------------|
A||-------------------|-------------------|-----------2--------|
E||-------------------|-------------------|--------------------|

--------------------|--0--------0--------|---------------2----|
--4------------0----|--------------------|--4-----------------|
--------------------|--------------------|--------------------|
--------------------|--------------------|--------------------|

--0--------0--------|---------------------|---------------------|
--------------------|--0------------------|--2--------2---------|
--------------------|---------4--2--------|----------------2----|
--------------------|---------------------|---------------------|

---------------------|-----------1--------|--------------------|
--0--------2---------|--0-----------------|---------------0----|
----------------2----|--------------------|--9-----------------|
---------------------|--------------------|--------------------|

--0--------0--------|---------------2----|--0--------0--------|
--------------------|--4-----------------|--------------------|
--------------------|--------------------|--------------------|
--------------------|--------------------|--------------------|

---------------------|---------------------|----------------------|
--0------------------|--2--------2---------|--0-------------------|
---------4--2--------|----------------0----|-------4----2----0----|
---------------------|---------------------|----------------------|

-------------------|-------------------|--------------------|
--0----------------|--0----------------|--0--------0--------|
-------------------|-------------------|--------------------|
-------------------|-------------------|--------------------|

--0-------------------|-------------------|-------------------|
-------4----2---------|--0----------------|--0----------------|
-----------------0----|-------------------|-------------------|
----------------------|-------------------|-------------------|

--------------------|--0--------2--------|-----------1--------|
--2--------4--------|--------------------|--0-----------------|
--------------------|--------------------|--------------------|
--------------------|--------------------|--------------------|

--------------------|--0--------0--------|---------------2----|
--4------------0----|--------------------|--4-----------------|
--------------------|--------------------|--------------------|
--------------------|--------------------|--------------------|

--0--------0--------|---------------------|---------------------|
--------------------|--0------------------|--2--------2---------|
--------------------|---------4--2--------|----------------0----|
--------------------|---------------------|---------------------|

--------------------|-------------------|----------------------|
--------------------|-------------------|----------------------|
--0------------4----|-------------------|-----------------2----|
--------------------|--2----------------|--2----3----2---------|

--------------------|-------------------|-------||
--------------------|-------------------|-------||
--2--------2--------|--0----------------|-------||
--------------------|-------------------|-------||





„Musiker ist nicht gleich Musiker“
nach oben springen

#3

RE: Noten/ Bass-Tabs Tie a yellow ribbon

in Sonstiges: 28.12.2007 22:44
von Steve • Bass Spieler
| 17 Beiträge
Hallo J.P!

Vielen dank für die Tabs! Ist echt super!!! Wollte noch fragen, was ds "L" mit der Anmerkung tied-note bedeutet. Bezüglich Bass: Der sah vor der Restaurierung nicht wirklich gut aus. Hab´mir noch einen Ibanez SR 300FM zugelegt. Günstig, spricht mich optisch sehr an und lässt sich auch gut bespielen.

Guten Rutsch und nochmals danke, Steve
zuletzt bearbeitet 28.12.2007 22:49 | nach oben springen

#4

RE: Noten/ Bass-Tabs Tie a yellow ribbon

in Sonstiges: 29.12.2007 01:56
von Necros • Club Bassist

| 428 Beiträge

Tied Notes sin gebundene Noten. Also 2L is 2 klingen lassen.

nach oben springen

#5

RE: Noten/ Bass-Tabs Tie a yellow ribbon

in Sonstiges: 29.12.2007 04:55
von Steve • Bass Spieler
| 17 Beiträge

Aha! Quasi Ligaturbogen bei Tabs?

nach oben springen

#6

RE: Noten/ Bass-Tabs Tie a yellow ribbon

in Sonstiges: 29.12.2007 07:14
von Necros • Club Bassist

| 428 Beiträge

Nachdem ich erstma google befragt hab, was ein Ligaturbogen is: Ja

MfG Jan

nach oben springen

#7

RE: Noten/ Bass-Tabs Tie a yellow ribbon

in Sonstiges: 29.12.2007 22:38
von Steve • Bass Spieler
| 17 Beiträge
Servus JP!

Darf ich fragen, wo Du die Tabs aufgegabelt hast? Interessiert mich auch wegen der Tabs / Noten anderer Stücke.

PS Hat jemand im Forum eine Ahnung, welcher Hersteller für meinen blauen Bass in Frage kommen könnte? Der Bass wurde zusammen mit einem Echolette-Verstärker angeboten. Da ich jedoch schon einen VOX besitze, nahm ich nur den Bass.

Guten Rutsch, Steve
zuletzt bearbeitet 29.12.2007 22:42 | nach oben springen

#8

RE: Noten/ Bass-Tabs Tie a yellow ribbon

in Sonstiges: 01.01.2008 03:51
von JP • Admin

| 2.609 Beiträge

1. Frage: Aus unserem Archiv!
2. Frage: Hab imo kein zugriff auf die Bilder, daher versuche ich die Frage später zu beantworten.





„Musiker ist nicht gleich Musiker“
nach oben springen


↓↓Dies ist eine Shoutbox und kein Chat!↓↓


Hörprobe 1Hörprobe 2
E-Bass.at
Teamspeak

E-Mail

2012 © Copyright E-Bass.at

Der Forum-Inhaber ist nicht für die im Forum verlinkten Seiten und Beiträge der User verantwortlich.

Translate


Besucher
0 Mitglieder und 7 Gäste sind Online

Wir begrüßen unser neuestes Mitglied: Lithium
Forum Statistiken
Das Forum hat 2668 Themen und 33184 Beiträge.

Heute waren 0 Mitglieder Online:

Besucherrekord: 624 Benutzer (16.11.2014 13:59).

Xobor Einfach ein eigenes Forum erstellen | ©Xobor.de