E-Bass Forum

E-Bass
E-Bass Lernen




In diesem Forum kannst du deine Meinung sagen, ohne gleich verbannt zu werden. Wir sehen es nicht so eng. Ansonsten sind die Admins und Moderatoren ja auch noch da!

In this forum you can post your opinion what so ever. We’re cool. You won’t be banned immediately. Admins and moderators will guide and help you.







Es ist Uhr





#11

RE: bass kaufen + verstärker...

in Aller Anfang ist schwer / Every beginning is difficult 18.12.2007 08:48
von lefettsack • Bass Lehrer

| 2.235 Beiträge

hmm sorry falls ich gemein rüberkam, das war so nicht eplant, ich wollte ihm nur mut machen, bass macht spass und wenn du das solo magst wirst du das nach einiger zeit(nicht sofort) spielen können!


Wozu nen Sixpack wenn man ein Fass haben kann?
nach oben springen

#12

RE: bass kaufen + verstärker...

in Aller Anfang ist schwer / Every beginning is difficult 18.12.2007 11:29
von JP • Admin

| 2.609 Beiträge

Hach, ich hab es, das Halstuch! Was ich dann sah, war erschreckend. Ein Nahsenflaster!



Ich hab gelesen, das „Reita“ immer so rum läuft. Naja, wer’s braucht!

Das was ich sehen und hören konnte, dann sieht das etwa so aus.

G----------------------|---------------------------|---------------------------|
D----------------------|---------------------------|---------------------------|
A----------------------|---------------------------|---------------------------|
E---------------17\----|--3--3--3--3-3--3-3--3--3--|--3--3--3--3-3--3-3--3--3--|

|---------------------------|----------------------------|
|---------------------------|----------------------------|
|---------------------------|----------------------------|
|--6--6--6--6-6--6-6--6--6--|--6--6--6--6-6--6-6--6—6----|

|---------------------------|----------------------------|
|---------------------------|----------------------------|
|---------------------------|----------------------------|
|--3--3--3--3-3--3-3--3--3--|--3--3--3--3-3--3-3--3--3---|

|---------------------------|----------------------------|
|---------------------------|----------------------------|
|---------------------------|----------------------------|
|--6--6--6--6-6--6-6--6--6--|--6--6--6--6-6--6-6--6—6----|

|--------------------------|
|-----------5--------------|
|--5--7--8-----8--7--8--7--|
|--------------------------|x3

|---------------------------|--------------------------|
|---------------------------|-----------5--------------|
|--5--5--5--5-5--5-5--5--5--|--5--7--8-----8--7--8--7--|
|---------------------------|--------------------------|x3


Ist nicht alles, den Rest muss jemand anders machen, weil ich bin Krank und möchte nicht Kränker werden.





„Musiker ist nicht gleich Musiker“
nach oben springen

#13

RE: bass kaufen + verstärker...

in Aller Anfang ist schwer / Every beginning is difficult 22.12.2007 22:51
von n!m • Profi Bassist

| 186 Beiträge

naja ist ja recht einfach das 'solo', aber ich mein die schwierigkeit macht ja nich ein gutes solo aus!!
es kann ja so einfach sein wies nur will hauptsache es hört sich gut an! darum geht es ja.


!!!Bassisten haben länger und können tiefer!!!
nach oben springen

#14

RE: bass kaufen + verstärker...

in Aller Anfang ist schwer / Every beginning is difficult 23.12.2007 09:13
von JP • Admin

| 2.609 Beiträge

Da gebe ich dir Recht!





„Musiker ist nicht gleich Musiker“
nach oben springen

#15

RE: bass kaufen + verstärker...

in Aller Anfang ist schwer / Every beginning is difficult 23.12.2007 11:42
von Waldwegler • Bassist
| 59 Beiträge

Joa klingen tuts eigentlich net schlecht...
Naja, warscheinlich müssen die Japaner, dass als alternative hören, da CoB schon lange nicht mehr bei ihnen war^^. Ich mag zwar so Rock nicht besonders, aber ich hab da den Bassist von Silbermond entdeckt.
Gibts leider nicht in guter Qualität: http://www.youtube.com/watch?v=q6GkTxje-68&feature=related
Könnt einfach mol in youtube eingeben: Silbermond Bass Solo


mfg
Waldwegler

nach oben springen

#16

RE: bass kaufen + verstärker...

in Aller Anfang ist schwer / Every beginning is difficult 24.12.2007 01:45
von Dabeen • Club Bassist

| 285 Beiträge

joah is schon ganz ordentlich.. aber der hat kein tuch vorm mund.....


Rock on mfg
nach oben springen

#17

RE: bass kaufen + verstärker...

in Aller Anfang ist schwer / Every beginning is difficult 25.12.2007 07:59
von neko-chan • Bass Schüler | 3 Beiträge

also danke erst mal für eure antworten^-^ (auch wenn ihr eher an reirei rummeckert ö.ö das NASENBAND hat übrigens ne tiefere bedeutung)
ich will ja auch nicht gleich ne suupaaaa-bassistin hier werden, ich möcht das nur "zum spaß" lernen. als hobby einfach.
hab ich vllt ein bisschen doof ausgedrückt mit "solo". (gomen, gomen man kann ja nich alles wissen) nya jedenfalls ich fands toll als ich das damals live in münchen gesehn/gehört hab und ich denke nicht, das reita damit seine virtuosität unter beweis stellen, sondern einfach uns fans einheitzen wollte (was ihm übrigens seeehr gut gelungen ist)


LET'S GO! THIS IS OUR TURN!
STAND UP! RISE YOUR FIRST!
LET'S GO! THIS IS OUR TURN!
DESTRUCTIVE MUSIC!
[the GazettE ~ ∀И T I * P O P] ♪♫♪
nach oben springen

#18

RE: bass kaufen + verstärker...

in Aller Anfang ist schwer / Every beginning is difficult 25.12.2007 09:28
von Waldwegler • Bassist
| 59 Beiträge

aha, isch des ne Japanische Band???

nach oben springen

#19

RE: bass kaufen + verstärker...

in Aller Anfang ist schwer / Every beginning is difficult 26.12.2007 07:04
von neko-chan • Bass Schüler | 3 Beiträge

ja is es


LET'S GO! THIS IS OUR TURN!
STAND UP! RISE YOUR FIRST!
LET'S GO! THIS IS OUR TURN!
DESTRUCTIVE MUSIC!
[the GazettE ~ ∀И T I * P O P] ♪♫♪
nach oben springen

#20

RE: bass kaufen + verstärker...

in Aller Anfang ist schwer / Every beginning is difficult 28.12.2007 01:01
von JP • Admin

| 2.609 Beiträge

Es wird hier auf niemandem rumgemeckert, ob es nun "aemkei", „Reita“ oder ich bin, man hat hier halt etwas spass und das soll auch so sein! Es hat auch niemand behauptet, das "Reita" ein schlechter Bassist ist!

Mich würde aber interessieren, was für eine Bedeutung das Nasenband hat.





„Musiker ist nicht gleich Musiker“
nach oben springen


↓↓Dies ist eine Shoutbox und kein Chat!↓↓


Hörprobe 1Hörprobe 2
E-Bass.at
Teamspeak

E-Mail

2012 © Copyright E-Bass.at

Der Forum-Inhaber ist nicht für die im Forum verlinkten Seiten und Beiträge der User verantwortlich.

Translate


Besucher
0 Mitglieder und 8 Gäste sind Online

Wir begrüßen unser neuestes Mitglied: Lithium
Forum Statistiken
Das Forum hat 2668 Themen und 33184 Beiträge.

Heute waren 0 Mitglieder Online:

Besucherrekord: 624 Benutzer (16.11.2014 13:59).

Xobor Einfach ein eigenes Forum erstellen | ©Xobor.de