E-Bass Forum

E-Bass
E-Bass Lernen




In diesem Forum kannst du deine Meinung sagen, ohne gleich verbannt zu werden. Wir sehen es nicht so eng. Ansonsten sind die Admins und Moderatoren ja auch noch da!

In this forum you can post your opinion what so ever. We’re cool. You won’t be banned immediately. Admins and moderators will guide and help you.







Es ist Uhr





#21

RE: Was soll ich kaufen?

in Amps 13.09.2007 02:26
von elitejaeger • Profi Bassist

| 164 Beiträge

ich verswteh nich was diese tab edit soll wofür dasda is?


mfg
Hendrik
nach oben springen

#22

RE: Was soll ich kaufen?

in Amps 13.09.2007 09:30
von JP • Admin

| 2.609 Beiträge
Das hat den Vorteil, das, wenn ihr ein Tab reinpostest, dieser richtig editiert wird.

Ohne TAB-EDIT:

G------------------------|------------------------|------------------------|
D----------5-------5-----|------------------------|----------5-------5-----|
A--7----7-------7-----7--|------------------------|--7----7-------7-----7--|
E------------------------|--0----0--0--3----3--3--|------------------------|

Mit TAB-EDIT:

G------------------------|------------------------|------------------------|
D----------5-------5-----|------------------------|----------5-------5-----|
A--7----7-------7-----7--|------------------------|--7----7-------7-----7--|
E------------------------|--0----0--0--3----3--3--|------------------------|




„Musiker ist nicht gleich Musiker“
zuletzt bearbeitet 13.09.2007 09:31 | nach oben springen

#23

RE: Was soll ich kaufen?

in Amps 01.10.2007 19:43
von elitejaeger • Profi Bassist

| 164 Beiträge

ah danke ps hab mir zu nem hartke kickbag (combo) 100w raten lassen was sagt ihr dazu?


mfg
Hendrik
nach oben springen


↓↓Dies ist eine Shoutbox und kein Chat!↓↓


Hörprobe 1Hörprobe 2
E-Bass.at
Teamspeak

E-Mail

2012 © Copyright E-Bass.at

Der Forum-Inhaber ist nicht für die im Forum verlinkten Seiten und Beiträge der User verantwortlich.

Translate


Besucher
0 Mitglieder und 1 Gast sind Online

Wir begrüßen unser neuestes Mitglied: Lithium
Forum Statistiken
Das Forum hat 2668 Themen und 33184 Beiträge.

Heute waren 0 Mitglieder Online:

Besucherrekord: 624 Benutzer (16.11.2014 13:59).

Xobor Einfach ein eigenes Forum erstellen | ©Xobor.de